ISO-10303-21;
HEADER;
/* Generated by software containing ST-Developer
 * from STEP Tools, Inc. (www.steptools.com) 
 */
/* OPTION: using custom renumber hook */

FILE_DESCRIPTION(
/* description */ ('STEP AP242',
'CAx-IF Rec.Pracs.---Representation and Presentation of Product Manufa
cturing Information (PMI)---4.0---2014-10-13',
'CAx-IF Rec.Pracs.---3D Tessellated Geometry---0.4---2014-09-14','2;1'),

/* implementation_level */ '2;1');

FILE_NAME(
/* name */ '681f786f88f8237c677e818e',
/* time_stamp */ '2025-05-10T16:01:52Z',
/* author */ (''),
/* organization */ (''),
/* preprocessor_version */ 'ST-DEVELOPER v20',
/* originating_system */ 'ONSHAPE BY PTC INC, 1.197',
/* authorisation */ '  ');

FILE_SCHEMA (('AP242_MANAGED_MODEL_BASED_3D_ENGINEERING_MIM_LF { 1 0 10303 442 1 1 4 }'));
ENDSEC;

DATA;
#10=SHAPE_REPRESENTATION_RELATIONSHIP('','',#151,#11);
#11=ADVANCED_BREP_SHAPE_REPRESENTATION('',(#149),#249);
#12=PLANE('',#156);
#13=PLANE('',#160);
#14=PLANE('',#167);
#15=PLANE('',#168);
#16=LINE('',#216,#24);
#17=LINE('',#220,#25);
#18=LINE('',#222,#26);
#19=LINE('',#224,#27);
#20=LINE('',#226,#28);
#21=LINE('',#230,#29);
#22=LINE('',#234,#30);
#23=LINE('',#235,#31);
#24=VECTOR('',#175,1.);
#25=VECTOR('',#178,1.);
#26=VECTOR('',#181,1.);
#27=VECTOR('',#182,1.);
#28=VECTOR('',#183,1.);
#29=VECTOR('',#188,1.);
#30=VECTOR('',#193,1.);
#31=VECTOR('',#194,1.);
#32=ORIENTED_EDGE('',*,*,#64,.T.);
#33=ORIENTED_EDGE('',*,*,#65,.F.);
#34=ORIENTED_EDGE('',*,*,#66,.F.);
#35=ORIENTED_EDGE('',*,*,#67,.T.);
#36=ORIENTED_EDGE('',*,*,#68,.T.);
#37=ORIENTED_EDGE('',*,*,#69,.F.);
#38=ORIENTED_EDGE('',*,*,#70,.F.);
#39=ORIENTED_EDGE('',*,*,#65,.T.);
#40=ORIENTED_EDGE('',*,*,#71,.T.);
#41=ORIENTED_EDGE('',*,*,#72,.F.);
#42=ORIENTED_EDGE('',*,*,#73,.F.);
#43=ORIENTED_EDGE('',*,*,#69,.T.);
#44=ORIENTED_EDGE('',*,*,#74,.F.);
#45=ORIENTED_EDGE('',*,*,#67,.F.);
#46=ORIENTED_EDGE('',*,*,#75,.T.);
#47=ORIENTED_EDGE('',*,*,#72,.T.);
#48=ORIENTED_EDGE('',*,*,#76,.T.);
#49=ORIENTED_EDGE('',*,*,#77,.F.);
#50=ORIENTED_EDGE('',*,*,#78,.T.);
#51=ORIENTED_EDGE('',*,*,#79,.F.);
#52=ORIENTED_EDGE('',*,*,#76,.F.);
#53=ORIENTED_EDGE('',*,*,#66,.T.);
#54=ORIENTED_EDGE('',*,*,#70,.T.);
#55=ORIENTED_EDGE('',*,*,#73,.T.);
#56=ORIENTED_EDGE('',*,*,#75,.F.);
#57=ORIENTED_EDGE('',*,*,#78,.F.);
#58=ORIENTED_EDGE('',*,*,#77,.T.);
#59=ORIENTED_EDGE('',*,*,#64,.F.);
#60=ORIENTED_EDGE('',*,*,#74,.T.);
#61=ORIENTED_EDGE('',*,*,#71,.F.);
#62=ORIENTED_EDGE('',*,*,#68,.F.);
#63=ORIENTED_EDGE('',*,*,#79,.T.);
#64=EDGE_CURVE('',#80,#81,#92,.T.);
#65=EDGE_CURVE('',#82,#81,#16,.T.);
#66=EDGE_CURVE('',#83,#82,#93,.T.);
#67=EDGE_CURVE('',#83,#80,#17,.T.);
#68=EDGE_CURVE('',#81,#84,#18,.T.);
#69=EDGE_CURVE('',#85,#84,#19,.T.);
#70=EDGE_CURVE('',#82,#85,#20,.T.);
#71=EDGE_CURVE('',#84,#86,#94,.T.);
#72=EDGE_CURVE('',#87,#86,#21,.T.);
#73=EDGE_CURVE('',#85,#87,#95,.T.);
#74=EDGE_CURVE('',#80,#86,#22,.T.);
#75=EDGE_CURVE('',#83,#87,#23,.T.);
#76=EDGE_CURVE('',#88,#88,#96,.T.);
#77=EDGE_CURVE('',#89,#89,#97,.T.);
#78=EDGE_CURVE('',#90,#90,#98,.T.);
#79=EDGE_CURVE('',#91,#91,#99,.T.);
#80=VERTEX_POINT('',#214);
#81=VERTEX_POINT('',#215);
#82=VERTEX_POINT('',#217);
#83=VERTEX_POINT('',#219);
#84=VERTEX_POINT('',#223);
#85=VERTEX_POINT('',#225);
#86=VERTEX_POINT('',#229);
#87=VERTEX_POINT('',#231);
#88=VERTEX_POINT('',#238);
#89=VERTEX_POINT('',#240);
#90=VERTEX_POINT('',#243);
#91=VERTEX_POINT('',#245);
#92=CIRCLE('',#154,0.0025);
#93=CIRCLE('',#155,0.0025);
#94=CIRCLE('',#158,0.0025);
#95=CIRCLE('',#159,0.0025);
#96=CIRCLE('',#162,0.0015);
#97=CIRCLE('',#163,0.0015);
#98=CIRCLE('',#165,0.0015);
#99=CIRCLE('',#166,0.0015);
#100=EDGE_LOOP('',(#32,#33,#34,#35));
#101=EDGE_LOOP('',(#36,#37,#38,#39));
#102=EDGE_LOOP('',(#40,#41,#42,#43));
#103=EDGE_LOOP('',(#44,#45,#46,#47));
#104=EDGE_LOOP('',(#48));
#105=EDGE_LOOP('',(#49));
#106=EDGE_LOOP('',(#50));
#107=EDGE_LOOP('',(#51));
#108=EDGE_LOOP('',(#52));
#109=EDGE_LOOP('',(#53,#54,#55,#56));
#110=EDGE_LOOP('',(#57));
#111=EDGE_LOOP('',(#58));
#112=EDGE_LOOP('',(#59,#60,#61,#62));
#113=EDGE_LOOP('',(#63));
#114=FACE_BOUND('',#100,.T.);
#115=FACE_BOUND('',#101,.T.);
#116=FACE_BOUND('',#102,.T.);
#117=FACE_BOUND('',#103,.T.);
#118=FACE_BOUND('',#104,.T.);
#119=FACE_BOUND('',#105,.T.);
#120=FACE_BOUND('',#106,.T.);
#121=FACE_BOUND('',#107,.T.);
#122=FACE_BOUND('',#108,.T.);
#123=FACE_BOUND('',#109,.T.);
#124=FACE_BOUND('',#110,.T.);
#125=FACE_BOUND('',#111,.T.);
#126=FACE_BOUND('',#112,.T.);
#127=FACE_BOUND('',#113,.T.);
#128=CYLINDRICAL_SURFACE('',#153,0.0025);
#129=CYLINDRICAL_SURFACE('',#157,0.0025);
#130=CYLINDRICAL_SURFACE('',#161,0.0015);
#131=CYLINDRICAL_SURFACE('',#164,0.0015);
#132=ADVANCED_FACE('',(#114),#128,.T.);
#133=ADVANCED_FACE('',(#115),#12,.F.);
#134=ADVANCED_FACE('',(#116),#129,.T.);
#135=ADVANCED_FACE('',(#117),#13,.T.);
#136=ADVANCED_FACE('',(#118,#119),#130,.F.);
#137=ADVANCED_FACE('',(#120,#121),#131,.F.);
#138=ADVANCED_FACE('',(#122,#123,#124),#14,.T.);
#139=ADVANCED_FACE('',(#125,#126,#127),#15,.F.);
#140=CLOSED_SHELL('',(#132,#133,#134,#135,#136,#137,#138,#139));
#141=STYLED_ITEM('',(#142),#149);
#142=PRESENTATION_STYLE_ASSIGNMENT((#143));
#143=SURFACE_STYLE_USAGE(.BOTH.,#144);
#144=SURFACE_SIDE_STYLE('',(#145));
#145=SURFACE_STYLE_FILL_AREA(#146);
#146=FILL_AREA_STYLE('',(#147));
#147=FILL_AREA_STYLE_COLOUR('',#148);
#148=COLOUR_RGB('',0.615686274509804,0.811764705882353,0.929411764705882);
#149=MANIFOLD_SOLID_BREP('Part 1',#140);
#150=SHAPE_DEFINITION_REPRESENTATION(#254,#151);
#151=SHAPE_REPRESENTATION('Part 1',(#152),#249);
#152=AXIS2_PLACEMENT_3D('',#211,#169,#170);
#153=AXIS2_PLACEMENT_3D('',#212,#171,#172);
#154=AXIS2_PLACEMENT_3D('',#213,#173,#174);
#155=AXIS2_PLACEMENT_3D('',#218,#176,#177);
#156=AXIS2_PLACEMENT_3D('',#221,#179,#180);
#157=AXIS2_PLACEMENT_3D('',#227,#184,#185);
#158=AXIS2_PLACEMENT_3D('',#228,#186,#187);
#159=AXIS2_PLACEMENT_3D('',#232,#189,#190);
#160=AXIS2_PLACEMENT_3D('',#233,#191,#192);
#161=AXIS2_PLACEMENT_3D('',#236,#195,#196);
#162=AXIS2_PLACEMENT_3D('',#237,#197,#198);
#163=AXIS2_PLACEMENT_3D('',#239,#199,#200);
#164=AXIS2_PLACEMENT_3D('',#241,#201,#202);
#165=AXIS2_PLACEMENT_3D('',#242,#203,#204);
#166=AXIS2_PLACEMENT_3D('',#244,#205,#206);
#167=AXIS2_PLACEMENT_3D('',#246,#207,#208);
#168=AXIS2_PLACEMENT_3D('',#247,#209,#210);
#169=DIRECTION('',(0.,0.,1.));
#170=DIRECTION('',(1.,0.,0.));
#171=DIRECTION('',(0.,0.,-1.));
#172=DIRECTION('',(-1.,0.,0.));
#173=DIRECTION('',(0.,0.,1.));
#174=DIRECTION('',(1.,0.,0.));
#175=DIRECTION('',(0.,0.,-1.));
#176=DIRECTION('',(0.,0.,1.));
#177=DIRECTION('',(1.,0.,0.));
#178=DIRECTION('',(0.,0.,-1.));
#179=DIRECTION('',(0.,1.,0.));
#180=DIRECTION('',(0.,0.,1.));
#181=DIRECTION('',(1.,0.,0.));
#182=DIRECTION('',(0.,0.,-1.));
#183=DIRECTION('',(1.,0.,0.));
#184=DIRECTION('',(0.,0.,-1.));
#185=DIRECTION('',(-1.,0.,0.));
#186=DIRECTION('',(0.,0.,1.));
#187=DIRECTION('',(1.,0.,0.));
#188=DIRECTION('',(0.,0.,-1.));
#189=DIRECTION('',(0.,0.,1.));
#190=DIRECTION('',(1.,0.,0.));
#191=DIRECTION('',(0.,1.,0.));
#192=DIRECTION('',(0.,0.,1.));
#193=DIRECTION('',(1.,0.,0.));
#194=DIRECTION('',(1.,0.,0.));
#195=DIRECTION('',(0.,0.,-1.));
#196=DIRECTION('',(-1.,0.,0.));
#197=DIRECTION('',(0.,0.,1.));
#198=DIRECTION('',(1.,0.,0.));
#199=DIRECTION('',(0.,0.,1.));
#200=DIRECTION('',(1.,0.,0.));
#201=DIRECTION('',(0.,0.,-1.));
#202=DIRECTION('',(-1.,0.,0.));
#203=DIRECTION('',(0.,0.,1.));
#204=DIRECTION('',(1.,0.,0.));
#205=DIRECTION('',(0.,0.,1.));
#206=DIRECTION('',(1.,0.,0.));
#207=DIRECTION('',(0.,0.,1.));
#208=DIRECTION('',(1.,0.,0.));
#209=DIRECTION('',(0.,0.,1.));
#210=DIRECTION('',(1.,0.,0.));
#211=CARTESIAN_POINT('',(0.,0.,0.));
#212=CARTESIAN_POINT('',(-1.53080849893419E-19,0.,0.0015));
#213=CARTESIAN_POINT('',(-1.53080849893419E-19,0.,-0.0015));
#214=CARTESIAN_POINT('',(0.,0.0025,-0.0015));
#215=CARTESIAN_POINT('',(0.,-0.0025,-0.0015));
#216=CARTESIAN_POINT('',(0.,-0.0025,0.0015));
#217=CARTESIAN_POINT('',(0.,-0.0025,0.0015));
#218=CARTESIAN_POINT('',(-1.53080849893419E-19,0.,0.0015));
#219=CARTESIAN_POINT('',(0.,0.0025,0.0015));
#220=CARTESIAN_POINT('',(0.,0.0025,0.0015));
#221=CARTESIAN_POINT('',(0.00925,-0.0025,0.0015));
#222=CARTESIAN_POINT('',(0.00925,-0.0025,-0.0015));
#223=CARTESIAN_POINT('',(0.0185,-0.0025,-0.0015));
#224=CARTESIAN_POINT('',(0.0185,-0.0025,0.0015));
#225=CARTESIAN_POINT('',(0.0185,-0.0025,0.0015));
#226=CARTESIAN_POINT('',(0.00925,-0.0025,0.0015));
#227=CARTESIAN_POINT('',(0.0185,-4.33680868994202E-19,0.0015));
#228=CARTESIAN_POINT('',(0.0185,-4.33680868994202E-19,-0.0015));
#229=CARTESIAN_POINT('',(0.0185,0.0025,-0.0015));
#230=CARTESIAN_POINT('',(0.0185,0.0025,0.0015));
#231=CARTESIAN_POINT('',(0.0185,0.0025,0.0015));
#232=CARTESIAN_POINT('',(0.0185,-4.33680868994202E-19,0.0015));
#233=CARTESIAN_POINT('',(0.00925,0.0025,0.0015));
#234=CARTESIAN_POINT('',(0.00925,0.0025,-0.0015));
#235=CARTESIAN_POINT('',(0.00925,0.0025,0.0015));
#236=CARTESIAN_POINT('',(0.,9.18485099360515E-20,0.0015));
#237=CARTESIAN_POINT('',(0.,9.18485099360515E-20,0.0015));
#238=CARTESIAN_POINT('',(0.0015,9.18485099360515E-20,0.0015));
#239=CARTESIAN_POINT('',(0.,9.18485099360515E-20,-0.0015));
#240=CARTESIAN_POINT('',(0.0015,9.18485099360515E-20,-0.0015));
#241=CARTESIAN_POINT('',(0.0185,-4.57312987535817E-19,0.0015));
#242=CARTESIAN_POINT('',(0.0185,-4.57312987535817E-19,0.0015));
#243=CARTESIAN_POINT('',(0.02,-4.57312987535817E-19,0.0015));
#244=CARTESIAN_POINT('',(0.0185,-4.57312987535817E-19,-0.0015));
#245=CARTESIAN_POINT('',(0.02,-4.57312987535817E-19,-0.0015));
#246=CARTESIAN_POINT('',(0.00925,0.,0.0015));
#247=CARTESIAN_POINT('',(0.00925,0.,-0.0015));
#248=MECHANICAL_DESIGN_GEOMETRIC_PRESENTATION_REPRESENTATION('',(#141),
#249);
#249=(
GEOMETRIC_REPRESENTATION_CONTEXT(3)
GLOBAL_UNCERTAINTY_ASSIGNED_CONTEXT((#250))
GLOBAL_UNIT_ASSIGNED_CONTEXT((#253,#252,#251))
REPRESENTATION_CONTEXT('Part 1','TOP_LEVEL_ASSEMBLY_PART')
);
#250=UNCERTAINTY_MEASURE_WITH_UNIT(LENGTH_MEASURE(1.E-8),#253,
'DISTANCE_ACCURACY_VALUE','Maximum Tolerance applied to model');
#251=(
NAMED_UNIT(*)
SI_UNIT($,.STERADIAN.)
SOLID_ANGLE_UNIT()
);
#252=(
NAMED_UNIT(*)
PLANE_ANGLE_UNIT()
SI_UNIT($,.RADIAN.)
);
#253=(
LENGTH_UNIT()
NAMED_UNIT(*)
SI_UNIT($,.METRE.)
);
#254=PRODUCT_DEFINITION_SHAPE('','',#255);
#255=PRODUCT_DEFINITION('','',#257,#256);
#256=PRODUCT_DEFINITION_CONTEXT('',#263,'design');
#257=PRODUCT_DEFINITION_FORMATION_WITH_SPECIFIED_SOURCE('','',#259,
 .NOT_KNOWN.);
#258=PRODUCT_RELATED_PRODUCT_CATEGORY('','',(#259));
#259=PRODUCT('Part 1','Part 1','Part 1',(#261));
#260=PRODUCT_CATEGORY('','');
#261=PRODUCT_CONTEXT('',#263,'mechanical');
#262=APPLICATION_PROTOCOL_DEFINITION('international standard',
'ap242_managed_model_based_3d_engineering',2011,#263);
#263=APPLICATION_CONTEXT('managed model based 3d engineering');
ENDSEC;
END-ISO-10303-21;
